  0
SECTION
  2
HEADER
  9
$ACADVER
  1
AC1015
  9
$ACADMAINTVER
 70
     6
  9
$DWGCODEPAGE
  3
ANSI_1254
  9
$INSBASE
 10
0.0
 20
0.0
 30
0.0
  9
$EXTMIN
 10
0.0
 20
0.0
 30
0.0
  9
$EXTMAX
 10
279.4
 20
215.9
 30
0.0
  9
$LIMMIN
 10
0.0
 20
0.0
  9
$LIMMAX
 10
279.4
 20
215.9
  9
$ORTHOMODE
 70
     0
  9
$REGENMODE
 70
     1
  9
$FILLMODE
 70
     1
  9
$QTEXTMODE
 70
     0
  9
$MIRRTEXT
 70
     1
  9
$LTSCALE
 40
1.0
  9
$ATTMODE
 70
     1
  9
$TEXTSIZE
 40
3.5
  9
$TRACEWID
 40
1.0
  9
$TEXTSTYLE
  7
Standard
  9
$CLAYER
  8
0
  9
$CELTYPE
  6
ByLayer
  9
$CECOLOR
 62
   256
  9
$CELTSCALE
 40
1.0
  9
$DISPSILH
 70
     0
  9
$DIMSCALE
 40
1.0
  9
$DIMASZ
 40
3.5
  9
$DIMEXO
 40
1.0
  9
$DIMDLI
 40
3.75
  9
$DIMRND
 40
0.0
  9
$DIMDLE
 40
0.0
  9
$DIMEXE
 40
1.0
  9
$DIMTP
 40
0.0
  9
$DIMTM
 40
0.0
  9
$DIMTXT
 40
3.5
  9
$DIMCEN
 40
2.5
  9
$DIMTSZ
 40
0.0
  9
$DIMTOL
 70
     0
  9
$DIMLIM
 70
     0
  9
$DIMTIH
 70
     1
  9
$DIMTOH
 70
     1
  9
$DIMSE1
 70
     0
  9
$DIMSE2
 70
     0
  9
$DIMTAD
 70
     1
  9
$DIMZIN
 70
     0
  9
$DIMBLK
  1

  9
$DIMASO
 70
     1
  9
$DIMSHO
 70
     1
  9
$DIMPOST
  1

  9
$DIMAPOST
  1

  9
$DIMALT
 70
     0
  9
$DIMALTD
 70
     3
  9
$DIMALTF
 40
0.0393700787
  9
$DIMLFAC
 40
1.0
  9
$DIMTOFL
 70
     1
  9
$DIMTVP
 40
0.0
  9
$DIMTIX
 70
     0
  9
$DIMSOXD
 70
     0
  9
$DIMSAH
 70
     0
  9
$DIMBLK1
  1

  9
$DIMBLK2
  1

  9
$DIMSTYLE
  2
ISO-25
  9
$DIMCLRD
 70
     0
  9
$DIMCLRE
 70
     0
  9
$DIMCLRT
 70
     0
  9
$DIMTFAC
 40
1.0
  9
$DIMGAP
 40
1.524
  9
$DIMJUST
 70
     0
  9
$DIMSD1
 70
     0
  9
$DIMSD2
 70
     0
  9
$DIMTOLJ
 70
     0
  9
$DIMTZIN
 70
     0
  9
$DIMALTZ
 70
     0
  9
$DIMALTTZ
 70
     0
  9
$DIMUPT
 70
     0
  9
$DIMDEC
 70
     2
  9
$DIMTDEC
 70
     2
  9
$DIMALTU
 70
     2
  9
$DIMALTTD
 70
     3
  9
$DIMTXSTY
  7
Standard
  9
$DIMAUNIT
 70
     0
  9
$DIMADEC
 70
     2
  9
$DIMALTRND
 40
0.0
  9
$DIMAZIN
 70
     0
  9
$DIMDSEP
 70
    44
  9
$DIMATFIT
 70
     3
  9
$DIMFRAC
 70
     0
  9
$DIMLDRBLK
  1

  9
$DIMLUNIT
 70
     2
  9
$DIMLWD
 70
    -2
  9
$DIMLWE
 70
    -2
  9
$DIMTMOVE
 70
     0
  9
$LUNITS
 70
     2
  9
$LUPREC
 70
     2
  9
$SKETCHINC
 40
1.0
  9
$FILLETRAD
 40
10.0
  9
$AUNITS
 70
     0
  9
$AUPREC
 70
     2
  9
$MENU
  1
.
  9
$ELEVATION
 40
0.0
  9
$PELEVATION
 40
0.0
  9
$THICKNESS
 40
0.0
  9
$LIMCHECK
 70
     0
  9
$CHAMFERA
 40
0.0
  9
$CHAMFERB
 40
0.0
  9
$CHAMFERC
 40
0.0
  9
$CHAMFERD
 40
0.0
  9
$SKPOLY
 70
     0
  9
$TDCREATE
 40
2459921.536965405
  9
$TDUCREATE
 40
2459921.411965405
  9
$TDUPDATE
 40
2459921.536965579
  9
$TDUUPDATE
 40
2459921.411965579
  9
$TDINDWG
 40
0.0000000116
  9
$TDUSRTIMER
 40
0.0000000116
  9
$USRTIMER
 70
     1
  9
$ANGBASE
 50
0.0
  9
$ANGDIR
 70
     0
  9
$PDMODE
 70
     0
  9
$PDSIZE
 40
-1.0
  9
$PLINEWID
 40
0.0
  9
$SPLFRAME
 70
     0
  9
$SPLINETYPE
 70
     6
  9
$SPLINESEGS
 70
     8
  9
$HANDSEED
  5
CC
  9
$SURFTAB1
 70
     6
  9
$SURFTAB2
 70
     6
  9
$SURFTYPE
 70
     6
  9
$SURFU
 70
     6
  9
$SURFV
 70
     6
  9
$UCSBASE
  2

  9
$UCSNAME
  2

  9
$UCSORG
 10
0.0
 20
0.0
 30
0.0
  9
$UCSXDIR
 10
1.0
 20
0.0
 30
0.0
  9
$UCSYDIR
 10
0.0
 20
1.0
 30
0.0
  9
$UCSORTHOREF
  2

  9
$UCSORTHOVIEW
 70
     0
  9
$UCSORGTOP
 10
0.0
 20
0.0
 30
0.0
  9
$UCSORGBOTTOM
 10
0.0
 20
0.0
 30
0.0
  9
$UCSORGLEFT
 10
0.0
 20
0.0
 30
0.0
  9
$UCSORGRIGHT
 10
0.0
 20
0.0
 30
0.0
  9
$UCSORGFRONT
 10
0.0
 20
0.0
 30
0.0
  9
$UCSORGBACK
 10
0.0
 20
0.0
 30
0.0
  9
$PUCSBASE
  2

  9
$PUCSNAME
  2

  9
$PUCSORG
 10
0.0
 20
0.0
 30
0.0
  9
$PUCSXDIR
 10
1.0
 20
0.0
 30
0.0
  9
$PUCSYDIR
 10
0.0
 20
1.0
 30
0.0
  9
$PUCSORTHOREF
  2

  9
$PUCSORTHOVIEW
 70
     0
  9
$PUCSORGTOP
 10
0.0
 20
0.0
 30
0.0
  9
$PUCSORGBOTTOM
 10
0.0
 20
0.0
 30
0.0
  9
$PUCSORGLEFT
 10
0.0
 20
0.0
 30
0.0
  9
$PUCSORGRIGHT
 10
0.0
 20
0.0
 30
0.0
  9
$PUCSORGFRONT
 10
0.0
 20
0.0
 30
0.0
  9
$PUCSORGBACK
 10
0.0
 20
0.0
 30
0.0
  9
$USERI1
 70
     0
  9
$USERI2
 70
     0
  9
$USERI3
 70
     0
  9
$USERI4
 70
     0
  9
$USERI5
 70
     0
  9
$USERR1
 40
0.0
  9
$USERR2
 40
0.0
  9
$USERR3
 40
0.0
  9
$USERR4
 40
0.0
  9
$USERR5
 40
0.0
  9
$WORLDVIEW
 70
     1
  9
$SHADEDGE
 70
     3
  9
$SHADEDIF
 70
    70
  9
$TILEMODE
 70
     1
  9
$MAXACTVP
 70
    64
  9
$PINSBASE
 10
0.0
 20
0.0
 30
0.0
  9
$PLIMCHECK
 70
     0
  9
$PEXTMIN
 10
1.0000000000E+20
 20
1.0000000000E+20
 30
1.0000000000E+20
  9
$PEXTMAX
 10
-1.0000000000E+20
 20
-1.0000000000E+20
 30
-1.0000000000E+20
  9
$PLIMMIN
 10
0.0
 20
0.0
  9
$PLIMMAX
 10
420.0
 20
297.0
  9
$UNITMODE
 70
     0
  9
$VISRETAIN
 70
     1
  9
$PLINEGEN
 70
     0
  9
$PSLTSCALE
 70
     1
  9
$TREEDEPTH
 70
  3020
  9
$CMLSTYLE
  2
Standard
  9
$CMLJUST
 70
     0
  9
$CMLSCALE
 40
20.0
  9
$PROXYGRAPHICS
 70
     1
  9
$MEASUREMENT
 70
     1
  9
$CELWEIGHT
370
    -1
  9
$ENDCAPS
280
     0
  9
$JOINSTYLE
280
     0
  9
$LWDISPLAY
290
     1
  9
$INSUNITS
 70
     4
  9
$HYPERLINKBASE
  1

  9
$STYLESHEET
  1

  9
$XEDIT
290
     1
  9
$CEPSNTYPE
380
     0
  9
$PSTYLEMODE
290
     1
  9
$FINGERPRINTGUID
  2
{f6f6f5b5-5e74-470f-a102-8b1a0b30f6a3}
  9
$VERSIONGUID
  2
{FAEB1C32-E019-11D5-929B-00C0DF256EC4}
  9
$EXTNAMES
290
     1
  9
$PSVPSCALE
 40
0.0
  9
$OLESTARTUP
290
     0
  0
ENDSEC
  0
SECTION
  2
CLASSES
  0
CLASS
  1
ACDBDICTIONARYWDFLT
  2
AcDbDictionaryWithDefault
  3
ObjectDBX Classes
 90
        0
280
     0
281
     0
  0
CLASS
  1
VISUALSTYLE
  2
AcDbVisualStyle
  3
ObjectDBX Classes
 90
     4095
280
     0
281
     0
  0
CLASS
  1
MATERIAL
  2
AcDbMaterial
  3
ObjectDBX Classes
 90
     1153
280
     0
281
     0
  0
CLASS
  1
SCALE
  2
AcDbScale
  3
ObjectDBX Classes
 90
     1153
280
     0
281
     0
  0
CLASS
  1
TABLESTYLE
  2
AcDbTableStyle
  3
ObjectDBX Classes
 90
     4095
280
     0
281
     0
  0
CLASS
  1
MLEADERSTYLE
  2
AcDbMLeaderStyle
  3
ACDB_MLEADERSTYLE_CLASS
 90
     4095
280
     0
281
     0
  0
CLASS
  1
SUN
  2
AcDbSun
  3
SCENEOE
 90
     1153
280
     0
281
     0
  0
CLASS
  1
ACDBPLACEHOLDER
  2
AcDbPlaceHolder
  3
ObjectDBX Classes
 90
        0
280
     0
281
     0
  0
CLASS
  1
LAYOUT
  2
AcDbLayout
  3
ObjectDBX Classes
 90
        0
280
     0
281
     0
  0
ENDSEC
  0
SECTION
  2
TABLES
  0
TABLE
  2
VPORT
  5
8
330
0
100
AcDbSymbolTable
 70
     1
  0
VPORT
  5
29
330
8
100
AcDbSymbolTableRecord
100
AcDbViewportTableRecord
  2
*Active
 70
     0
 10
0.0
 20
0.0
 11
1.0
 21
1.0
 12
139.7
 22
107.95
 13
0.0
 23
0.0
 14
10.0
 24
10.0
 15
10.0
 25
10.0
 16
0.0
 26
0.0
 36
1.0
 17
0.0
 27
0.0
 37
0.0
 40
215.9
 41
1.2941176471
 42
50.0
 43
0.0
 44
0.0
 50
0.0
 51
0.0
 71
     0
 72
  2000
 73
     1
 74
     3
 75
     0
 76
     0
 77
     0
 78
     0
281
     0
 65
     1
110
0.0
120
0.0
130
0.0
111
1.0
121
0.0
131
0.0
112
0.0
122
1.0
132
0.0
 79
     0
146
0.0
  0
ENDTAB
  0
TABLE
  2
LTYPE
  5
5
330
0
100
AcDbSymbolTable
 70
     6
  0
LTYPE
  5
14
330
5
100
AcDbSymbolTableRecord
100
AcDbLinetypeTableRecord
  2
ByBlock
 70
     0
  3

 72
    65
 73
     0
 40
0.0
  0
LTYPE
  5
15
330
5
100
AcDbSymbolTableRecord
100
AcDbLinetypeTableRecord
  2
ByLayer
 70
     0
  3

 72
    65
 73
     0
 40
0.0
  0
LTYPE
  5
16
330
5
100
AcDbSymbolTableRecord
100
AcDbLinetypeTableRecord
  2
Continuous
 70
     0
  3
Solid line
 72
    65
 73
     0
 40
0.0
  0
LTYPE
  5
6E
330
5
100
AcDbSymbolTableRecord
100
AcDbLinetypeTableRecord
  2
HIDDEN
 70
     0
  3
Hidden __ __ __ __ __ __ __ __ __ __ __ __ __ __
 72
    65
 73
     2
 40
1.905
 49
1.27
 74
     0
 49
-0.635
 74
     0
  0
LTYPE
  5
6F
330
5
100
AcDbSymbolTableRecord
100
AcDbLinetypeTableRecord
  2
PHANTOM
 70
     0
  3
Phantom ______  __  __  ______  __  __  ______
 72
    65
 73
     6
 40
12.7
 49
6.35
 74
     0
 49
-1.27
 74
     0
 49
1.27
 74
     0
 49
-1.27
 74
     0
 49
1.27
 74
     0
 49
-1.27
 74
     0
  0
LTYPE
  5
70
330
5
100
AcDbSymbolTableRecord
100
AcDbLinetypeTableRecord
  2
CENTER
 70
     0
  3
Center ____ _ ____ _ ____ _ ____ _ ____ _ ____
 72
    65
 73
     4
 40
10.16
 49
6.35
 74
     0
 49
-1.27
 74
     0
 49
1.27
 74
     0
 49
-1.27
 74
     0
  0
LTYPE
  5
71
330
5
100
AcDbSymbolTableRecord
100
AcDbLinetypeTableRecord
  2
CENTERX2
 70
     0
  3
Center (2x) ________  __  ________  __  _____
 72
    65
 73
     4
 40
20.32
 49
12.7
 74
     0
 49
-2.54
 74
     0
 49
2.54
 74
     0
 49
-2.54
 74
     0
  0
LTYPE
  5
72
330
5
100
AcDbSymbolTableRecord
100
AcDbLinetypeTableRecord
  2
DOT2
 70
     0
  3
Dot (.5x) ........................................
 72
    65
 73
     2
 40
0.635
 49
0.0
 74
     0
 49
-0.635
 74
     0
  0
ENDTAB
  0
TABLE
  2
LAYER
  5
2
330
0
100
AcDbSymbolTable
 70
    17
  0
LAYER
  5
10
330
2
100
AcDbSymbolTableRecord
100
AcDbLayerTableRecord
  2
0
 70
     0
 62
     7
  6
Continuous
370
    -3
390
F
  0
LAYER
  5
73
330
2
100
AcDbSymbolTableRecord
100
AcDbLayerTableRecord
  2
FORMAT
 70
     0
 62
     7
  6
Continuous
370
    -3
390
F
  0
LAYER
  5
74
330
2
100
AcDbSymbolTableRecord
100
AcDbLayerTableRecord
  2
YARDIMCI_GEOMETRI
 70
     0
 62
    -6
  6
Continuous
290
     0
370
    -3
390
F
  0
LAYER
  5
75
330
2
100
AcDbSymbolTableRecord
100
AcDbLayerTableRecord
  2
SAYFA_CERCEVESI
 70
     0
 62
     7
  6
Continuous
370
    25
390
F
  0
LAYER
  5
76
330
2
100
AcDbSymbolTableRecord
100
AcDbLayerTableRecord
  2
ANTET
 70
     0
 62
     7
  6
Continuous
370
    -3
390
F
  0
LAYER
  5
77
330
2
100
AcDbSymbolTableRecord
100
AcDbLayerTableRecord
  2
OLCU
 70
     0
 62
   150
  6
Continuous
370
    -3
390
F
  0
LAYER
  5
78
330
2
100
AcDbSymbolTableRecord
100
AcDbLayerTableRecord
  2
METIN
 70
     0
 62
    96
  6
Continuous
370
    -3
390
F
  0
LAYER
  5
79
330
2
100
AcDbSymbolTableRecord
100
AcDbLayerTableRecord
  2
BALON
 70
     0
 62
     5
  6
Continuous
370
    -3
390
F
  0
LAYER
  5
7A
330
2
100
AcDbSymbolTableRecord
100
AcDbLayerTableRecord
  2
VURGU
 70
     0
 62
     7
  6
Continuous
370
    -3
390
F
  0
LAYER
  5
7B
330
2
100
AcDbSymbolTableRecord
100
AcDbLayerTableRecord
  2
SILIK
 70
     0
 62
     7
  6
Continuous
370
    -3
390
F
  0
LAYER
  5
7C
330
2
100
AcDbSymbolTableRecord
100
AcDbLayerTableRecord
  2
MODEL
 70
     0
 62
     7
  6
Continuous
370
    -3
390
F
  0
LAYER
  5
7D
330
2
100
AcDbSymbolTableRecord
100
AcDbLayerTableRecord
  2
DETAYLANDıRMA
 70
     0
 62
   190
  6
Continuous
370
    -3
390
F
  0
LAYER
  5
7E
330
2
100
AcDbSymbolTableRecord
100
AcDbLayerTableRecord
  2
TOLERANS
 70
     0
 62
   230
  6
Continuous
370
    -3
390
F
  0
LAYER
  5
7F
330
2
100
AcDbSymbolTableRecord
100
AcDbLayerTableRecord
  2
MERKEZ_CIZGILERI
 70
     0
 62
    30
  6
Continuous
370
    -3
390
F
  0
LAYER
  5
80
330
2
100
AcDbSymbolTableRecord
100
AcDbLayerTableRecord
  2
KESIT-DETAY_CIZGILERI
 70
     0
 62
     7
  6
Continuous
370
    -3
390
F
  0
LAYER
  5
81
330
2
100
AcDbSymbolTableRecord
100
AcDbLayerTableRecord
  2
\U+041E\U+0421\U+0415\U+0412\U+042B\U+0415
 70
     0
 62
     7
  6
Continuous
370
    -3
390
F
  0
LAYER
  5
82
330
2
100
AcDbSymbolTableRecord
100
AcDbLayerTableRecord
  2
\U+0412\U+041E\U+0414\U+042F\U+041D\U+042B\U+0415_\U+0417\U+041D\U+0410\U+041A\U+0418
 70
     0
 62
    11
  6
Continuous
370
    -3
390
F
  0
ENDTAB
  0
TABLE
  2
STYLE
  5
3
330
0
100
AcDbSymbolTable
 70
     1
  0
STYLE
  5
11
330
3
100
AcDbSymbolTableRecord
100
AcDbTextStyleTableRecord
  2
Standard
 70
     0
 40
0.0
 41
1.0
 50
0.0
 71
     0
 42
3.5
  3
txt
  4

  0
ENDTAB
  0
TABLE
  2
VIEW
  5
6
330
0
100
AcDbSymbolTable
 70
     0
  0
ENDTAB
  0
TABLE
  2
UCS
  5
7
330
0
100
AcDbSymbolTable
 70
     0
  0
ENDTAB
  0
TABLE
  2
APPID
  5
9
330
0
100
AcDbSymbolTable
 70
     1
  0
APPID
  5
12
330
9
100
AcDbSymbolTableRecord
100
AcDbRegAppTableRecord
  2
ACAD
 70
     0
  0
ENDTAB
  0
TABLE
  2
DIMSTYLE
  5
A
330
0
100
AcDbSymbolTable
 70
     1
100
AcDbDimStyleTable
  0
DIMSTYLE
105
27
330
A
100
AcDbSymbolTableRecord
100
AcDbDimStyleTableRecord
  2
ISO-25
 70
     0
 41
2.5
 42
0.625
 43
3.75
 44
1.25
 73
     0
 74
     0
 77
     1
 78
     8
140
2.5
141
2.5
143
0.0393700787
147
0.625
171
     3
172
     1
178
     0
271
     2
272
     2
274
     3
278
    44
283
     0
284
     8
340
11
  0
ENDTAB
  0
TABLE
  2
BLOCK_RECORD
  5
1
330
0
100
AcDbSymbolTable
 70
     3
  0
BLOCK_RECORD
  5
1F
330
1
100
AcDbSymbolTableRecord
100
AcDbBlockTableRecord
  2
*Model_Space
340
22
  0
BLOCK_RECORD
  5
1B
330
1
100
AcDbSymbolTableRecord
100
AcDbBlockTableRecord
  2
*Paper_Space
340
1E
  0
BLOCK_RECORD
  5
23
330
1
100
AcDbSymbolTableRecord
100
AcDbBlockTableRecord
  2
*Paper_Space0
340
26
  0
BLOCK_RECORD
  5
88
330
1
100
AcDbSymbolTableRecord
100
AcDbBlockTableRecord
  2
SW_CENTERMARKSYMBOL_0
340
0
102
{BLKREFS
331
93
102
}
  0
BLOCK_RECORD
  5
9C
330
1
100
AcDbSymbolTableRecord
100
AcDbBlockTableRecord
  2
SW_CENTERMARKSYMBOL_1
340
0
102
{BLKREFS
331
A7
102
}
  0
ENDTAB
  0
ENDSEC
  0
SECTION
  2
BLOCKS
  0
BLOCK
  5
20
330
1F
100
AcDbEntity
  8
0
100
AcDbBlockBegin
  2
*Model_Space
 70
     0
 10
0.0
 20
0.0
 30
0.0
  3
*Model_Space
  1

  0
ENDBLK
  5
21
330
1F
100
AcDbEntity
  8
0
100
AcDbBlockEnd
  0
BLOCK
  5
1C
330
1B
100
AcDbEntity
 67
     1
  8
0
100
AcDbBlockBegin
  2
*Paper_Space
 70
     0
 10
0.0
 20
0.0
 30
0.0
  3
*Paper_Space
  1

  0
ENDBLK
  5
1D
330
1B
100
AcDbEntity
 67
     1
  8
0
100
AcDbBlockEnd
  0
BLOCK
  5
24
330
23
100
AcDbEntity
  8
0
100
AcDbBlockBegin
  2
*Paper_Space0
 70
     0
 10
0.0
 20
0.0
 30
0.0
  3
*Paper_Space0
  1

  0
ENDBLK
  5
25
330
23
100
AcDbEntity
  8
0
100
AcDbBlockEnd
  0
BLOCK
  5
89
330
88
100
AcDbEntity
  8
0
100
AcDbBlockBegin
  2
SW_CENTERMARKSYMBOL_0
 70
     0
 10
0.0
 20
0.0
 30
0.0
  3
SW_CENTERMARKSYMBOL_0
  1

  0
LINE
  5
8B
330
88
100
AcDbEntity
  8
FORMAT
 62
     0
100
AcDbLine
 10
0.0
 20
0.0
 30
0.0
 11
2.5
 21
0.0
 31
0.0
  0
LINE
  5
8C
330
88
100
AcDbEntity
  8
FORMAT
 62
     0
100
AcDbLine
 10
0.0
 20
0.0
 30
0.0
 11
0.0
 21
2.5
 31
0.0
  0
LINE
  5
8D
330
88
100
AcDbEntity
  8
FORMAT
 62
     0
100
AcDbLine
 10
0.0
 20
0.0
 30
0.0
 11
-2.5
 21
0.0
 31
0.0
  0
LINE
  5
8E
330
88
100
AcDbEntity
  8
FORMAT
 62
     0
100
AcDbLine
 10
0.0
 20
0.0
 30
0.0
 11
0.0
 21
-2.5
 31
0.0
  0
LINE
  5
8F
330
88
100
AcDbEntity
  8
FORMAT
 62
     0
100
AcDbLine
 10
5.0
 20
0.0
 30
0.0
 11
202.5
 21
0.0
 31
0.0
  0
LINE
  5
90
330
88
100
AcDbEntity
  8
FORMAT
 62
     0
100
AcDbLine
 10
0.0
 20
5.0
 30
0.0
 11
0.0
 21
202.5
 31
0.0
  0
LINE
  5
91
330
88
100
AcDbEntity
  8
FORMAT
 62
     0
100
AcDbLine
 10
-5.0
 20
0.0
 30
0.0
 11
-202.5
 21
0.0
 31
0.0
  0
LINE
  5
92
330
88
100
AcDbEntity
  8
FORMAT
 62
     0
100
AcDbLine
 10
0.0
 20
-5.0
 30
0.0
 11
0.0
 21
-202.5
 31
0.0
  0
ENDBLK
  5
8A
330
88
100
AcDbEntity
  8
0
100
AcDbBlockEnd
  0
BLOCK
  5
9D
330
9C
100
AcDbEntity
  8
0
100
AcDbBlockBegin
  2
SW_CENTERMARKSYMBOL_1
 70
     0
 10
0.0
 20
0.0
 30
0.0
  3
SW_CENTERMARKSYMBOL_1
  1

  0
LINE
  5
9F
330
9C
100
AcDbEntity
  8
FORMAT
 62
     0
100
AcDbLine
 10
0.0
 20
0.0
 30
0.0
 11
0.0
 21
2.5
 31
0.0
  0
LINE
  5
A0
330
9C
100
AcDbEntity
  8
FORMAT
 62
     0
100
AcDbLine
 10
0.0
 20
0.0
 30
0.0
 11
-2.5
 21
0.0
 31
0.0
  0
LINE
  5
A1
330
9C
100
AcDbEntity
  8
FORMAT
 62
     0
100
AcDbLine
 10
0.0
 20
0.0
 30
0.0
 11
0.0
 21
-2.5
 31
0.0
  0
LINE
  5
A2
330
9C
100
AcDbEntity
  8
FORMAT
 62
     0
100
AcDbLine
 10
0.0
 20
0.0
 30
0.0
 11
2.5
 21
0.0
 31
0.0
  0
LINE
  5
A3
330
9C
100
AcDbEntity
  8
FORMAT
 62
     0
100
AcDbLine
 10
0.0
 20
5.0
 30
0.0
 11
0.0
 21
57.5
 31
0.0
  0
LINE
  5
A4
330
9C
100
AcDbEntity
  8
FORMAT
 62
     0
100
AcDbLine
 10
-5.0
 20
0.0
 30
0.0
 11
-57.5
 21
0.0
 31
0.0
  0
LINE
  5
A5
330
9C
100
AcDbEntity
  8
FORMAT
 62
     0
100
AcDbLine
 10
0.0
 20
-5.0
 30
0.0
 11
0.0
 21
-57.5
 31
0.0
  0
LINE
  5
A6
330
9C
100
AcDbEntity
  8
FORMAT
 62
     0
100
AcDbLine
 10
5.0
 20
0.0
 30
0.0
 11
57.5
 21
0.0
 31
0.0
  0
ENDBLK
  5
9E
330
9C
100
AcDbEntity
  8
0
100
AcDbBlockEnd
  0
ENDSEC
  0
SECTION
  2
ENTITIES
  0
LINE
  5
83
330
1F
100
AcDbEntity
  8
0
  6
Continuous
 62
     7
370
    25
100
AcDbLine
 10
92.3450997034
 20
203.188690489
 30
0.0
 11
92.3450997034
 21
68.4899808839
 31
0.0
  0
LINE
  5
84
330
1F
100
AcDbEntity
  8
0
  6
Continuous
 62
     7
370
    25
100
AcDbLine
 10
202.3450997034
 20
68.4899808839
 30
0.0
 11
202.3450997034
 21
203.1769960204
 31
0.0
  0
CIRCLE
  5
85
330
1F
100
AcDbEntity
  8
0
  6
Continuous
 62
     7
370
    25
100
AcDbCircle
 10
147.3450997034
 20
395.4899808839
 30
0.0
 40
176.3
  0
CIRCLE
  5
86
330
1F
100
AcDbEntity
  8
0
  6
Continuous
 62
     7
370
    25
100
AcDbCircle
 10
147.3450997034
 20
395.4899808839
 30
0.0
 40
200.0
  0
LINE
  5
87
330
1F
100
AcDbEntity
  8
0
  6
Continuous
 62
     7
370
    25
100
AcDbLine
 10
202.3450997034
 20
68.4899808839
 30
0.0
 11
92.3450997034
 21
68.4899808839
 31
0.0
  0
INSERT
  5
93
330
1F
100
AcDbEntity
  8
FORMAT
 62
     7
100
AcDbBlockReference
  2
SW_CENTERMARKSYMBOL_0
 10
147.3450997034
 20
395.4899808839
 30
0.0
  0
LINE
  5
94
330
1F
100
AcDbEntity
  8
0
  6
Continuous
 62
     7
370
    25
100
AcDbLine
 10
347.3450997034
 20
1225.2985254641
 30
0.0
 11
347.3450997034
 21
1840.2985254641
 31
0.0
  0
LINE
  5
95
330
1F
100
AcDbEntity
  8
0
  6
Continuous
 62
     7
370
    25
100
AcDbLine
 10
-52.6549002966
 20
1840.2985254641
 30
0.0
 11
-52.6549002966
 21
1225.2985254641
 31
0.0
  0
CIRCLE
  5
96
330
1F
100
AcDbEntity
  8
0
  6
Continuous
 62
     7
370
    25
100
AcDbCircle
 10
147.3450997034
 20
1532.7985254641
 30
0.0
 40
48.40000000000009
  0
CIRCLE
  5
97
330
1F
100
AcDbEntity
  8
0
  6
Continuous
 62
     7
370
    25
100
AcDbCircle
 10
147.3450997034
 20
1532.7985254641
 30
0.0
 40
55.0
  0
LINE
  5
98
330
1F
100
AcDbEntity
  8
0
  6
Continuous
 62
     7
370
    25
100
AcDbLine
 10
147.3450997034
 20
1840.2985254641
 30
0.0
 11
347.3450997034
 21
1840.2985254641
 31
0.0
  0
LINE
  5
99
330
1F
100
AcDbEntity
  8
0
  6
Continuous
 62
     7
370
    25
100
AcDbLine
 10
-52.6549002966
 20
1840.2985254641
 30
0.0
 11
147.3450997034
 21
1840.2985254641
 31
0.0
  0
LINE
  5
9A
330
1F
100
AcDbEntity
  8
0
  6
Continuous
 62
     7
370
    25
100
AcDbLine
 10
147.3450997034
 20
1225.2985254641
 30
0.0
 11
347.3450997034
 21
1225.2985254641
 31
0.0
  0
LINE
  5
9B
330
1F
100
AcDbEntity
  8
0
  6
Continuous
 62
     7
370
    25
100
AcDbLine
 10
-52.6549002966
 20
1225.2985254641
 30
0.0
 11
147.3450997034
 21
1225.2985254641
 31
0.0
  0
INSERT
  5
A7
330
1F
100
AcDbEntity
  8
FORMAT
100
AcDbBlockReference
  2
SW_CENTERMARKSYMBOL_1
 10
147.3450997034
 20
1532.7985254641
 30
0.0
  0
LINE
  5
A8
330
1F
100
AcDbEntity
  8
0
  6
Continuous
 62
     7
370
    25
100
AcDbLine
 10
-656.8107274638
 20
595.4899808839
 30
0.0
 11
-1271.8107274638
 21
595.4899808839
 31
0.0
  0
LINE
  5
A9
330
1F
100
AcDbEntity
  8
0
  6
Continuous
 62
     7
370
    25
100
AcDbLine
 10
-909.3463807354
 20
195.4899808839
 30
0.0
 11
-656.8107274638
 21
195.4899808839
 31
0.0
  0
LINE
  5
AA
330
1F
100
AcDbEntity
  8
0
  6
Continuous
 62
     7
370
    25
100
AcDbLine
 10
-1271.8107274638
 20
195.4899808839
 30
0.0
 11
-1019.3107274638
 21
195.4899808839
 31
0.0
  0
LINE
  5
AB
330
1F
100
AcDbEntity
  8
0
  6
Continuous
 62
     7
370
    25
100
AcDbLine
 10
-1019.3107274638
 20
195.4899808839
 30
0.0
 11
-1019.3107274638
 21
68.4899808839
 31
0.0
  0
LINE
  5
AC
330
1F
100
AcDbEntity
  8
0
  6
Continuous
 62
     7
370
    25
100
AcDbLine
 10
-909.3107274638
 20
68.4899808839
 30
0.0
 11
-909.3107274638
 21
195.4997756111
 31
0.0
  0
SPLINE
  5
AD
330
1F
100
AcDbEntity
  8
0
  6
Continuous
 62
     7
370
    25
100
AcDbSpline
210
0.0
220
0.0
230
1.0
 70
     8
 71
     3
 72
    44
 73
    40
 74
     0
 42
0.00000001
 43
0.00000001
 40
0.0
 40
0.0
 40
0.0
 40
0.0
 40
0.0067743534500225
 40
0.0333463305854024
 40
0.0601211522022433
 40
0.0854758496783737
 40
0.1110027082383111
 40
0.1370637763909182
 40
0.1633056868447073
 40
0.1891932383362883
 40
0.2152522442856335
 40
0.2418452338617967
 40
0.268620816542664
 40
0.2952625388342101
 40
0.3220888458384291
 40
0.3495035394317881
 40
0.3771253503633943
 40
0.4035829818585497
 40
0.4302341757249323
 40
0.4575068166443333
 40
0.484998641543802
 40
0.5105492311563559
 40
0.5362816187831928
 40
0.5625847566466744
 40
0.5890832975847331
 40
0.6144443929103647
 40
0.6399746180713946
 40
0.66602792864456
 40
0.6922579895538791
 40
0.7184098644203759
 40
0.744735980434467
 40
0.7716084164942284
 40
0.7986694498544912
 40
0.8253877041065314
 40
0.8522952019936693
 40
0.879809061300419
 40
0.9075372016985722
 40
0.953243527676645
 40
1.0
 40
1.0
 40
1.0
 40
1.0
 10
-909.3463807354287
 20
195.4997791022256
 30
0.0
 10
-909.335777244497
 20
195.4968651608004
 30
0.0
 10
-909.2835822244734
 20
195.482521466633
 30
0.0
 10
-909.5705764672103
 20
195.5614632623914
 30
0.0
 10
-910.2165254693069
 20
195.7377083071555
 30
0.0
 10
-911.244752865314
 20
196.0142383667765
 30
0.0
 10
-912.5975369119197
 20
196.3705827380288
 30
0.0
 10
-914.3076489752922
 20
196.8088394593593
 30
0.0
 10
-916.3579026819979
 20
197.3159605728451
 30
0.0
 10
-918.7248863010681
 20
197.8765049416908
 30
0.0
 10
-921.4032520987487
 20
198.4785633669322
 30
0.0
 10
-924.4023742379331
 20
199.1115634162962
 30
0.0
 10
-927.7002214043757
 20
199.7566463404508
 30
0.0
 10
-931.2641666901316
 20
200.3933671958415
 30
0.0
 10
-935.09256449795
 20
201.0070988607645
 30
0.0
 10
-939.1846135777051
 20
201.5815867649062
 30
0.0
 10
-943.4497055851357
 20
202.088844083626
 30
0.0
 10
-947.8312221091228
 20
202.5127811567301
 30
0.0
 10
-952.3169873238019
 20
202.8454123405789
 30
0.0
 10
-956.9540522058101
 20
203.0796856251585
 30
0.0
 10
-961.5865065340051
 20
203.2002270079413
 30
0.0
 10
-966.1493636452581
 20
203.209542901201
 30
0.0
 10
-970.6303982435052
 20
203.1147704970442
 30
0.0
 10
-975.1202281377095
 20
202.9149693342195
 30
0.0
 10
-979.5097422464672
 20
202.6173921487011
 30
0.0
 10
-983.7481175835838
 20
202.2357124872022
 30
0.0
 10
-987.8303707903946
 20
201.7818518682984
 30
0.0
 10
-991.7977401955495
 20
201.2593231981822
 30
0.0
 10
-995.6071550013229
 20
200.6824003240327
 30
0.0
 10
-999.2154953467812
 20
200.068882777053
 30
0.0
 10
-1002.614648687379
 20
199.4320291949813
 30
0.0
 10
-1005.786635432955
 20
198.7864381779364
 30
0.0
 10
-1008.681877182405
 20
198.1541624586496
 30
0.0
 10
-1011.267151511343
 20
197.5554573597753
 30
0.0
 10
-1013.535590466101
 20
197.0039726876476
 30
0.0
 10
-1015.477726211077
 20
196.5123314977418
 30
0.0
 10
-1017.38601664302
 20
196.0135252929589
 30
0.0
 10
-1018.96768489172
 20
195.5847900422528
 30
0.0
 10
-1019.195517403783
 20
195.5218223219712
 30
0.0
 10
-1019.310727463832
 20
195.4899808838502
 30
0.0
  0
LINE
  5
AE
330
1F
100
AcDbEntity
  8
0
  6
Continuous
 62
     7
370
    25
100
AcDbLine
 10
-1271.8107274638
 20
195.4899808839
 30
0.0
 11
-1271.8107274638
 21
595.4899808839
 31
0.0
  0
LINE
  5
AF
330
1F
100
AcDbEntity
  8
0
  6
Continuous
 62
     7
370
    25
100
AcDbLine
 10
-656.8107274638
 20
195.4899808839
 30
0.0
 11
-656.8107274638
 21
595.4899808839
 31
0.0
  0
LINE
  5
B0
330
1F
100
AcDbEntity
  8
0
  6
Continuous
 62
     7
370
    25
100
AcDbLine
 10
-909.3107274638
 20
68.4899808839
 30
0.0
 11
-1019.3107274638
 21
68.4899808839
 31
0.0
  0
LINE
  5
B1
330
1F
100
AcDbEntity
  8
0
  6
Continuous
 62
     7
370
    25
100
AcDbLine
 10
1366.8357131298
 20
195.4899808839
 30
0.0
 11
1619.3357131298
 21
195.4899808839
 31
0.0
  0
LINE
  5
B2
330
1F
100
AcDbEntity
  8
0
  6
Continuous
 62
     7
370
    25
100
AcDbLine
 10
1004.3357131298
 20
195.4899808839
 30
0.0
 11
1256.8722148653
 21
195.4899808839
 31
0.0
  0
LINE
  5
B3
330
1F
100
AcDbEntity
  8
0
  6
Continuous
 62
     7
370
    25
100
AcDbLine
 10
1619.3357131298
 20
595.4899808839
 30
0.0
 11
1004.3357131298
 21
595.4899808839
 31
0.0
  0
LINE
  5
B4
330
1F
100
AcDbEntity
  8
0
  6
Continuous
 62
     7
370
    25
100
AcDbLine
 10
1256.8357131298
 20
195.5000089644
 30
0.0
 11
1256.8357131298
 21
68.4899808839
 31
0.0
  0
LINE
  5
B5
330
1F
100
AcDbEntity
  8
0
  6
Continuous
 62
     7
370
    25
100
AcDbLine
 10
1366.8357131298
 20
68.4899808839
 30
0.0
 11
1366.8357131298
 21
195.4899808839
 31
0.0
  0
SPLINE
  5
B6
330
1F
100
AcDbEntity
  8
0
  6
Continuous
 62
     7
370
    25
100
AcDbSpline
210
0.0
220
0.0
230
1.0
 70
     8
 71
     3
 72
    45
 73
    41
 74
     0
 42
0.00000001
 43
0.00000001
 40
0.0
 40
0.0
 40
0.0
 40
0.0
 40
0.0257920705477268
 40
0.0517698151480596
 40
0.0780332339741668
 40
0.1046857805802661
 40
0.1304710498311802
 40
0.156432250845232
 40
0.1826611486268151
 40
0.2092535346173171
 40
0.2356102795362369
 40
0.2621449579413628
 40
0.2889544301207355
 40
0.3161408319083964
 40
0.3428527331613614
 40
0.3697552845876605
 40
0.3972701012651277
 40
0.4250018392377717
 40
0.4511624894387866
 40
0.4775158639134669
 40
0.5041707805388338
 40
0.5312399047927084
 40
0.5566458402108239
 40
0.5822282322275493
 40
0.6081718008325037
 40
0.6342973892726902
 40
0.660024026153291
 40
0.6859214880247922
 40
0.7120791474776915
 40
0.7385906954934269
 40
0.7651032637204058
 40
0.7919885158322744
 40
0.8190636833216218
 40
0.8465311986995778
 40
0.8731379591344017
 40
0.9001442650372251
 40
0.9273559793634131
 40
0.954993150206327
 40
0.9808878498405705
 40
1.0
 40
1.0
 40
1.0
 40
1.0
 10
1366.835713129773
 20
195.4899808838501
 30
0.0
 10
1366.800579534299
 20
195.4996573890488
 30
0.0
 10
1366.73005942077
 20
195.519080059458
 30
0.0
 10
1366.157423993455
 20
195.6758645033248
 30
0.0
 10
1365.234935071354
 20
195.9252010854148
 30
0.0
 10
1363.941237795414
 20
196.2682055584684
 30
0.0
 10
1362.303776517143
 20
196.6909991279658
 30
0.0
 10
1360.342829795461
 20
197.1808194841874
 30
0.0
 10
1358.038140845094
 20
197.7332130449141
 30
0.0
 10
1355.409128819188
 20
198.3322248256679
 30
0.0
 10
1352.473471753544
 20
198.9615530858308
 30
0.0
 10
1349.251887379206
 20
199.6039595579552
 30
0.0
 10
1345.734405975429
 20
200.2470834185832
 30
0.0
 10
1341.965669693715
 20
200.8675443291858
 30
0.0
 10
1337.974008911944
 20
201.4467235837003
 30
0.0
 10
1333.773708154481
 20
201.9695540727819
 30
0.0
 10
1329.351867083398
 20
202.4225976615481
 30
0.0
 10
1324.832387435824
 20
202.7802111460677
 30
0.0
 10
1320.279024299967
 20
203.033404087019
 30
0.0
 10
1315.723932507934
 20
203.1801221459422
 30
0.0
 10
1311.086819356352
 20
203.2185834959732
 30
0.0
 10
1306.509957011491
 20
203.1452254720982
 30
0.0
 10
1302.035265491337
 20
202.967925922798
 30
0.0
 10
1297.693353158442
 20
202.6978007274424
 30
0.0
 10
1293.410337954183
 20
202.3358071524221
 30
0.0
 10
1289.24902241427
 20
201.8933074525328
 30
0.0
 10
1285.246412761289
 20
201.3843009612404
 30
0.0
 10
1281.422362219315
 20
200.8225094562873
 30
0.0
 10
1277.766845699465
 20
200.2168760035511
 30
0.0
 10
1274.316489888861
 20
199.5841009707411
 30
0.0
 10
1271.093797272192
 20
198.9401025109447
 30
0.0
 10
1268.132139428774
 20
198.3035923325774
 30
0.0
 10
1265.445834827734
 20
197.6895752442317
 30
0.0
 10
1263.1008442996
 20
197.125112960539
 30
0.0
 10
1261.104589915647
 20
196.62410033303
 30
0.0
 10
1259.473900513147
 20
196.2009781468454
 30
0.0
 10
1258.199704996176
 20
195.8616433797618
 30
0.0
 10
1257.347904970637
 20
195.6305564359613
 30
0.0
 10
1256.88815437239
 20
195.5044164315238
 30
0.0
 10
1256.876966003828
 20
195.5013251037425
 30
0.0
 10
1256.872214865258
 20
195.5000123719912
 30
0.0
  0
LINE
  5
B7
330
1F
100
AcDbEntity
  8
0
  6
Continuous
 62
     7
370
    25
100
AcDbLine
 10
1619.3357131298
 20
595.4899808839
 30
0.0
 11
1619.3357131298
 21
195.4899808839
 31
0.0
  0
LINE
  5
B8
330
1F
100
AcDbEntity
  8
0
  6
Continuous
 62
     7
370
    25
100
AcDbLine
 10
1004.3357131298
 20
595.4899808839
 30
0.0
 11
1004.3357131298
 21
195.4899808839
 31
0.0
  0
LINE
  5
B9
330
1F
100
AcDbEntity
  8
0
  6
Continuous
 62
     7
370
    25
100
AcDbLine
 10
1366.8357131298
 20
68.4899808839
 30
0.0
 11
1256.8357131298
 21
68.4899808839
 31
0.0
  0
LINE
  5
BA
330
1F
100
AcDbEntity
  8
0
  6
Continuous
 62
     7
370
    25
100
AcDbLine
 10
-52.6549002966
 20
-939.8546818545
 30
0.0
 11
-52.6549002966
 21
-1554.8546818545
 31
0.0
  0
LINE
  5
BB
330
1F
100
AcDbEntity
  8
0
  6
Continuous
 62
     7
370
    25
100
AcDbLine
 10
347.3450997034
 20
-1554.8546818545
 30
0.0
 11
347.3450997034
 21
-939.8546818545
 31
0.0
  0
LINE
  5
BC
330
1F
100
AcDbEntity
  8
0
  6
Continuous
 62
     7
370
    25
100
AcDbLine
 10
347.3450997034
 20
-1554.8546818545
 30
0.0
 11
-52.6549002966
 21
-1554.8546818545
 31
0.0
  0
LINE
  5
BD
330
1F
100
AcDbEntity
  8
0
  6
Continuous
 62
     7
370
    25
100
AcDbLine
 10
347.3450997034
 20
-939.8546818545
 30
0.0
 11
-52.6549002966
 21
-939.8546818545
 31
0.0
  0
LINE
  5
BE
330
1F
100
AcDbEntity
  8
0
  6
Continuous
 62
     7
370
    25
100
AcDbLine
 10
1507.7731817678
 20
-823.2357676062
 30
0.0
 11
1072.9025113381
 21
-572.1902732208
 31
0.0
  0
LINE
  5
BF
330
1F
100
AcDbEntity
  8
0
  6
Continuous
 62
     7
370
    25
100
AcDbLine
 10
872.9187648108
 20
-918.609818173
 30
0.0
 11
1135.3459732893
 21
-1070.1058209446
 31
0.0
  0
LINE
  5
C0
330
1F
100
AcDbEntity
  8
0
  6
Continuous
 62
     7
370
    25
100
AcDbLine
 10
1245.3459732893
 20
-1133.607469274
 30
0.0
 11
1307.7894352406
 21
-1169.6553125585
 31
0.0
  0
LINE
  5
C1
330
1F
100
AcDbEntity
  8
0
  6
Continuous
 62
     7
370
    25
100
AcDbLine
 10
1135.3459732893
 20
-1031.1133916746
 30
0.0
 11
1135.3459732893
 21
-1137.9316383763
 31
0.0
  0
LINE
  5
C2
330
1F
100
AcDbEntity
  8
0
  6
Continuous
 62
     7
370
    25
100
AcDbLine
 10
1245.3459732893
 20
-1137.9316383763
 30
0.0
 11
1245.3459732893
 21
-1031.11370412
 31
0.0
  0
SPLINE
  5
C3
330
1F
100
AcDbEntity
  8
0
  6
Continuous
 62
     7
370
    25
100
AcDbSpline
210
0.0
220
0.0
230
1.0
 70
     8
 71
     3
 72
    17
 73
    13
 74
     0
 42
0.00000001
 43
0.00000001
 40
0.0
 40
0.0
 40
0.0
 40
0.0
 40
0.1031755420500909
 40
0.2076641808170497
 40
0.3121541467134281
 40
0.4187718352007129
 40
0.5219201701491483
 40
0.6263064302307539
 40
0.7306946689646918
 40
0.837071698055794
 40
0.9425060965331664
 40
1.0
 40
1.0
 40
1.0
 40
1.0
 10
1151.455100324055
 20
-1011.779732191663
 30
0.0
 10
1150.424355096249
 20
-1012.395536512423
 30
0.0
 10
1148.349746530011
 20
-1013.634982385673
 30
0.0
 10
1145.585367072634
 20
-1015.571287306323
 30
0.0
 10
1143.078503587894
 20
-1017.568276012755
 30
0.0
 10
1140.915255410162
 20
-1019.59194584942
 30
0.0
 10
1139.089431932134
 20
-1021.639007667763
 30
0.0
 10
1137.622296590535
 20
-1023.688391286871
 30
0.0
 10
1136.490787994542
 20
-1025.770160483431
 30
0.0
 10
1135.742249316354
 20
-1027.865127851641
 30
0.0
 10
1135.364047422647
 20
-1029.651891580583
 30
0.0
 10
1135.385413353048
 20
-1030.73225002744
 30
0.0
 10
1135.392952931656
 20
-1031.113485353114
 30
0.0
  0
SPLINE
  5
C4
330
1F
100
AcDbEntity
  8
0
  6
Continuous
 62
     7
370
    25
100
AcDbSpline
210
0.0
220
0.0
230
1.0
 70
     8
 71
     3
 72
    32
 73
    28
 74
     0
 42
0.00000001
 43
0.00000001
 40
0.0
 40
0.0
 40
0.0
 40
0.0
 40
0.0248336042565032
 40
0.0787403927519208
 40
0.1326444991633871
 40
0.1694765045732457
 40
0.2050238806844259
 40
0.2405704397164073
 40
0.2766600646097727
 40
0.3133187415492152
 40
0.3475147945586962
 40
0.3997900368098374
 40
0.45206773999948
 40
0.4860008218470926
 40
0.5203933036645706
 40
0.5547864955386502
 40
0.5896447332867305
 40
0.6246373403871524
 40
0.6598647222861228
 40
0.6954537101104683
 40
0.7315379527254622
 40
0.767165120241372
 40
0.8030446326382513
 40
0.8397326911200624
 40
0.876706480408494
 40
0.9376530870541447
 40
1.0
 40
1.0
 40
1.0
 40
1.0
 10
1245.305177621964
 20
-1031.114089560317
 30
0.0
 10
1245.302306924702
 20
-1030.375569621878
 30
0.0
 10
1245.293204748976
 20
-1028.033930067376
 30
0.0
 10
1244.536512036291
 20
-1024.116222810359
 30
0.0
 10
1243.025866117142
 20
-1019.982061933376
 30
0.0
 10
1241.127813154389
 20
-1016.548178358698
 30
0.0
 10
1239.139406339228
 20
-1013.76289134234
 30
0.0
 10
1236.81668070746
 20
-1011.16968595827
 30
0.0
 10
1234.130501022758
 20
-1008.753421918531
 30
0.0
 10
1231.157309229478
 20
-1006.594848296559
 30
0.0
 10
1227.402451495228
 20
-1004.387101938841
 30
0.0
 10
1222.745400319696
 20
-1002.307012198609
 30
0.0
 10
1217.671276563611
 20
-1000.740564362955
 30
0.0
 10
1213.004718308085
 20
-999.7557666142977
 30
0.0
 10
1208.88897535724
 20
-999.1677924887458
 30
0.0
 10
1204.621286761684
 20
-998.8235613644895
 30
0.0
 10
1200.239640377055
 20
-998.7232133864914
 30
0.0
 10
1195.760895599354
 20
-998.8612099266122
 30
0.0
 10
1191.216597209662
 20
-999.2305965669701
 30
0.0
 10
1186.619436838544
 20
-999.8250948633209
 30
0.0
 10
1182.02885716751
 20
-1000.631943835328
 30
0.0
 10
1177.480260011677
 20
-1001.636022336454
 30
0.0
 10
1172.991951902935
 20
-1002.825404952699
 30
0.0
 10
1168.565343578726
 20
-1004.196701341291
 30
0.0
 10
1163.326152545472
 20
-1006.070573757279
 30
0.0
 10
1157.398643990325
 20
-1008.551244660606
 30
0.0
 10
1153.45122581507
 20
-1010.695452068554
 30
0.0
 10
1151.455100324055
 20
-1011.779732191663
 30
0.0
  0
LWPOLYLINE
  5
C5
330
1F
100
AcDbEntity
  8
0
  6
Continuous
 62
     7
370
    25
100
AcDbPolyline
 90
      151
 70
   128
 43
0.0
 10
972.9106380745
 20
-908.708208074
 10
978.8327498182
 20
-905.1461967302
 10
984.7444721655
 20
-901.3039363553
 10
990.6354339467
 20
-897.1881675796
 10
996.495300413
 20
-892.8061108603
 10
1002.3137913675
 20
-888.1654538137
 10
1008.0806991998
 20
-883.2743377293
 10
1013.785906794
 20
-878.1413432867
 10
1019.4194052774
 20
-872.7754755023
 10
1024.9713115794
 20
-867.1861479315
 10
1030.4318857696
 20
-861.3831661542
 10
1035.7915481456
 20
-855.3767105724
 10
1041.0408960382
 20
-849.17731855
 10
1046.1707203076
 20
-842.7958659273
 10
1051.1720214987
 20
-836.2435479405
 10
1056.0360256299
 20
-829.531859582
 10
1060.7541995852
 20
-822.6725754338
 10
1065.3182660841
 20
-815.677729011
 10
1069.7202182032
 20
-808.5595916512
 10
1073.9523334226
 20
-801.330650986
 10
1078.0071871742
 20
-794.0035890338
 10
1081.8776658666
 20
-786.591259951
 10
1085.556979365
 20
-779.1066674815
 10
1089.0386729033
 20
-771.5629421438
 10
1092.316638408
 20
-763.9733181955
 10
1095.3851252136
 20
-756.3511104161
 10
1098.2387501517
 20
-748.7096907479
 10
1100.8725069944
 20
-741.0624648376
 10
1103.2817752373
 20
-733.4228485182
 10
1105.4623282052
 20
-725.8042442724
 10
1107.4103404672
 20
-718.2200177211
 10
1109.122394548
 20
-710.6834741746
 10
1110.5954869228
 20
-703.2078352914
 10
1111.8270332871
 20
-695.8062158822
 10
1112.8148730901
 20
-688.4916009026
 10
1113.5572733251
 20
-681.2768226728
 10
1114.0529315699
 20
-674.1745383655
 10
1114.3009782713
 20
-667.1972078005
 10
1114.3009782713
 20
-660.3570715868
 10
1114.0529315699
 20
-653.6661296474
 10
1113.5572733251
 20
-647.1361201682
 10
1112.8148730901
 20
-640.7784990046
 10
1111.8270332871
 20
-634.6044195846
 10
1110.5954869228
 20
-628.6247133414
 10
1109.122394548
 20
-622.8498707117
 10
1107.4103404672
 20
-617.2900227317
 10
1105.4623282052
 20
-611.9549232641
 10
1103.2817752373
 20
-606.8539318862
 10
1100.8725069944
 20
-601.9959974702
 10
1098.2387501517
 20
-597.3896424838
 10
1095.3851252136
 20
-593.0429480389
 10
1092.316638408
 20
-588.9635397146
 10
1089.0386729033
 20
-585.1585741793
 10
1085.556979365
 20
-581.6347266354
 10
1081.8776658666
 20
-578.398179109
 10
1078.0071871742
 20
-575.4546096042
 10
1073.9523334226
 20
-572.8091821422
 10
1069.7202182032
 20
-570.4665377016
 10
1065.3182660841
 20
-568.4307860769
 10
1060.7541995852
 20
-566.705498668
 10
1056.0360256299
 20
-565.2937022155
 10
1051.1720214987
 20
-564.19787349
 10
1046.1707203076
 20
-563.4199349474
 10
1041.0408960382
 20
-562.9612513564
 10
1035.7915481456
 20
-562.8226274038
 10
1030.4318857696
 20
-563.004306283
 10
1024.9713115794
 20
-563.5059692677
 10
1019.4194052774
 20
-564.3267362705
 10
1013.785906794
 20
-565.4651673871
 10
1008.0806991998
 20
-566.9192654226
 10
1002.3137913675
 20
-568.6864793948
 10
996.495300413
 20
-570.76370901
 10
990.6354339467
 20
-573.1473101016
 10
984.7444721655
 20
-575.8331010233
 10
978.8327498182
 20
-578.8163699852
 10
972.9106380745
 20
-582.0918833197
 10
966.9885263307
 20
-585.6538946636
 10
961.0768039834
 20
-589.4961550385
 10
955.1858422022
 20
-593.6119238142
 10
949.3259757359
 20
-597.9939805335
 10
943.5074847814
 20
-602.6346375801
 10
937.7405769491
 20
-607.5257536645
 10
932.0353693549
 20
-612.6587481071
 10
926.4018708715
 20
-618.0246158915
 10
920.8499645695
 20
-623.6139434623
 10
915.3893903793
 20
-629.4169252396
 10
910.0297280033
 20
-635.4233808214
 10
904.7803801107
 20
-641.6227728438
 10
899.6505558413
 20
-648.0042254665
 10
894.6492546502
 20
-654.5565434533
 10
889.785250519
 20
-661.2682318118
 10
885.0670765637
 20
-668.12751596
 10
880.5030100648
 20
-675.1223623828
 10
876.1010579457
 20
-682.2404997426
 10
871.8689427263
 20
-689.4694404078
 10
867.8140889747
 20
-696.79650236
 10
863.9436102823
 20
-704.2088314428
 10
860.2642967839
 20
-711.6934239123
 10
856.7826032456
 20
-719.23714925
 10
853.5046377409
 20
-726.8267731983
 10
850.4361509353
 20
-734.4489809777
 10
847.5825259972
 20
-742.0904006459
 10
844.9487691545
 20
-749.7376265561
 10
842.5395009116
 20
-757.3772428756
 10
840.3589479437
 20
-764.9958471214
 10
838.4109356817
 20
-772.5800736727
 10
836.6988816009
 20
-780.1166172192
 10
835.2257892261
 20
-787.5922561024
 10
833.9942428618
 20
-794.9938755116
 10
833.0064030588
 20
-802.3084904912
 10
832.2640028238
 20
-809.5232687209
 10
831.768344579
 20
-816.6255530283
 10
831.5202978776
 20
-823.6028835933
 10
831.5202978776
 20
-830.443019807
 10
831.768344579
 20
-837.1339617464
 10
832.2640028238
 20
-843.6639712256
 10
833.0064030588
 20
-850.0215923892
 10
833.9942428618
 20
-856.1956718092
 10
835.2257892261
 20
-862.1753780524
 10
836.6988816009
 20
-867.9502206821
 10
838.4109356817
 20
-873.5100686621
 10
840.3589479437
 20
-878.8451681297
 10
842.5395009116
 20
-883.9461595076
 10
844.9487691545
 20
-888.8040939236
 10
847.5825259972
 20
-893.41044891
 10
850.4361509353
 20
-897.7571433549
 10
853.5046377409
 20
-901.8365516792
 10
856.7826032456
 20
-905.6415172145
 10
860.2642967839
 20
-909.1653647584
 10
863.9436102823
 20
-912.4019122848
 10
867.8140889747
 20
-915.3454817896
 10
871.8689427263
 20
-917.9909092516
 10
876.1010579457
 20
-920.3335536922
 10
880.5030100648
 20
-922.3693053169
 10
885.0670765637
 20
-924.0945927258
 10
889.785250519
 20
-925.5063891783
 10
894.6492546502
 20
-926.6022179038
 10
899.6505558413
 20
-927.3801564463
 10
904.7803801107
 20
-927.8388400374
 10
910.0297280033
 20
-927.97746399
 10
915.3893903793
 20
-927.7957851108
 10
920.8499645695
 20
-927.2941221261
 10
926.4018708715
 20
-926.4733551233
 10
932.0353693549
 20
-925.3349240067
 10
937.7405769491
 20
-923.8808259712
 10
943.5074847814
 20
-922.113611999
 10
949.3259757359
 20
-920.0363823838
 10
955.1858422022
 20
-917.6527812922
 10
961.0768039834
 20
-914.9669903705
 10
966.9885263307
 20
-911.9837214086
 10
972.9106380745
 20
-908.708208074
  0
LWPOLYLINE
  5
C6
330
1F
100
AcDbEntity
  8
0
  6
Continuous
 62
     7
370
    25
100
AcDbPolyline
 90
       58
 70
   128
 43
0.0
 10
1407.7813085042
 20
-1159.7537024595
 10
1413.7034202479
 20
-1156.1916911156
 10
1419.6151425952
 20
-1152.3494307407
 10
1425.5061043765
 20
-1148.2336619651
 10
1431.3659708428
 20
-1143.8516052458
 10
1437.1844617972
 20
-1139.2109481992
 10
1442.9513696295
 20
-1134.3198321148
 10
1448.6565772238
 20
-1129.1868376721
 10
1454.2900757072
 20
-1123.8209698877
 10
1459.8419820091
 20
-1118.231642317
 10
1465.3025561994
 20
-1112.4286605397
 10
1470.6622185753
 20
-1106.4222049578
 10
1475.911566468
 20
-1100.2228129355
 10
1481.0413907373
 20
-1093.8413603127
 10
1486.0426919284
 20
-1087.289042326
 10
1490.9066960597
 20
-1080.5773539675
 10
1495.6248700149
 20
-1073.7180698193
 10
1500.1889365139
 20
-1066.7232233965
 10
1504.5908886329
 20
-1059.6050860367
 10
1508.8230038524
 20
-1052.3761453715
 10
1512.8778576039
 20
-1045.0490834193
 10
1516.7483362963
 20
-1037.6367543365
 10
1520.4276497948
 20
-1030.152161867
 10
1523.9093433331
 20
-1022.6084365293
 10
1527.1873088377
 20
-1015.018812581
 10
1530.2557956433
 20
-1007.3966048015
 10
1533.1094205814
 20
-999.7551851334
 10
1535.7431774241
 20
-992.1079592231
 10
1538.152445667
 20
-984.4683429036
 10
1540.3329986349
 20
-976.8497386579
 10
1542.281010897
 20
-969.2655121065
 10
1543.9930649777
 20
-961.7289685601
 10
1545.4661573525
 20
-954.2533296769
 10
1546.6977037168
 20
-946.8517102677
 10
1547.6855435199
 20
-939.5370952881
 10
1548.4279437549
 20
-932.3223170583
 10
1548.9236019996
 20
-925.2200327509
 10
1549.1716487011
 20
-918.242702186
 10
1549.1716487011
 20
-911.4025659722
 10
1548.9236019996
 20
-904.7116240329
 10
1548.4279437549
 20
-898.1816145536
 10
1547.6855435199
 20
-891.8239933901
 10
1546.6977037168
 20
-885.6499139701
 10
1545.4661573525
 20
-879.6702077269
 10
1543.9930649777
 20
-873.8953650971
 10
1542.281010897
 20
-868.3355171172
 10
1540.3329986349
 20
-863.0004176496
 10
1538.152445667
 20
-857.8994262717
 10
1535.7431774241
 20
-853.0414918557
 10
1533.1094205814
 20
-848.4351368693
 10
1530.2557956433
 20
-844.0884424244
 10
1527.1873088377
 20
-840.0090341001
 10
1523.9093433331
 20
-836.2040685648
 10
1520.4276497948
 20
-832.6802210209
 10
1516.7483362963
 20
-829.4436734945
 10
1512.8778576039
 20
-826.5001039897
 10
1508.8230038524
 20
-823.8546765277
 10
1507.7731817678
 20
-823.2357676062
  0
LWPOLYLINE
  5
C7
330
1F
100
AcDbEntity
  8
0
  6
Continuous
 62
     7
370
    25
100
AcDbPolyline
 90
       20
 70
   128
 43
0.0
 10
1307.7894352406
 20
-1169.6553125585
 10
1310.9717283754
 20
-1171.3790480777
 10
1315.3736804945
 20
-1173.4147997024
 10
1319.9377469934
 20
-1175.1400871112
 10
1324.6559209487
 20
-1176.5518835638
 10
1329.5199250799
 20
-1177.6477122893
 10
1334.5212262711
 20
-1178.4256508318
 10
1339.6510505404
 20
-1178.8843344229
 10
1344.900398433
 20
-1179.0229583755
 10
1350.260060809
 20
-1178.8412794962
 10
1355.7206349993
 20
-1178.3396165116
 10
1361.2725413012
 20
-1177.5188495088
 10
1366.9060397846
 20
-1176.3804183922
 10
1372.6112473788
 20
-1174.9263203567
 10
1378.3781552111
 20
-1173.1591063845
 10
1384.1966461656
 20
-1171.0818767693
 10
1390.0565126319
 20
-1168.6982756777
 10
1395.9474744131
 20
-1166.012484756
 10
1401.8591967605
 20
-1163.0292157941
 10
1407.7813085042
 20
-1159.7537024595
  0
LWPOLYLINE
  5
C8
330
1F
100
AcDbEntity
  8
0
  6
Continuous
 62
     7
370
    25
100
AcDbPolyline
 90
      142
 70
   128
 43
0.0
 10
972.9106380745
 20
-889.3561908324
 10
978.4639789002
 20
-886.0074096122
 10
984.0062940818
 20
-882.3794654861
 10
989.5265798654
 20
-878.4795614015
 10
995.0138762347
 20
-874.3154402569
 10
1000.4572886706
 20
-869.8953695294
 10
1005.8460097815
 20
-865.2281248603
 10
1011.1693407606
 20
-860.3229726317
 10
1016.4167126268
 20
-855.1896515695
 10
1021.5777072092
 20
-849.8383534075
 10
1026.6420778306
 20
-844.2797026528
 10
1031.5997696521
 20
-838.5247354919
 10
1036.4409396353
 20
-832.5848778795
 10
1041.1559760854
 20
-826.471922853
 10
1045.7355177339
 20
-820.1980071187
 10
1050.1704723249
 20
-813.7755869557
 10
1054.4520346665
 20
-807.2174134847
 10
1058.571704113
 20
-800.536507352
 10
1062.521301442
 20
-793.7461328784
 10
1066.2929850937
 20
-786.8597717238
 10
1069.8792667393
 20
-779.8910961208
 10
1073.2730261484
 20
-772.8539417299
 10
1076.4675253261
 20
-765.7622801697
 10
1079.4564218898
 20
-758.6301912777
 10
1082.233781662
 20
-751.4718351563
 10
1084.7940904522
 20
-744.301424059
 10
1087.132265004
 20
-737.1331941733
 10
1089.2436630884
 20
-729.981377356
 10
1091.12409272
 20
-722.8601728775
 10
1092.7698204797
 20
-715.7837192301
 10
1094.1775789274
 20
-708.7660660575
 10
1095.3445730891
 20
-701.8211462605
 10
1096.2684860058
 20
-694.9627483344
 10
1096.9474833341
 20
-688.2044889935
 10
1097.3802169874
 20
-681.5597861363
 10
1097.5658278133
 20
-675.041832205
 10
1097.5039472985
 20
-668.6635679939
 10
1097.1946983012
 20
-662.4376569563
 10
1096.6386948067
 20
-656.3764600622
 10
1095.8370407082
 20
-650.4920112569
 10
1094.791327616
 20
-644.7959935689
 10
1093.5036316965
 20
-639.299715914
 10
1091.9765095508
 20
-634.0140906428
 10
1090.2129931385
 20
-628.949611875
 10
1088.2165837582
 20
-624.1163346644
 10
1085.9912450961
 20
-619.5238550354
 10
1083.5413953559
 20
-615.1812909314
 10
1080.8718984876
 20
-611.0972641114
 10
1077.9880545302
 20
-607.2798830325
 10
1074.8955890887
 20
-603.7367267516
 10
1071.6006419673
 20
-600.4748298775
 10
1068.1097549783
 20
-597.5006686044
 10
1064.4298589547
 20
-594.8201478544
 10
1060.5682599894
 20
-592.4385895532
 10
1056.5326249299
 20
-590.3607220644
 10
1052.3309661558
 20
-588.5906708015
 10
1047.9716256719
 20
-587.1319500376
 10
1043.4632585451
 20
-585.9874559275
 10
1038.8148157209
 20
-585.1594607585
 10
1034.0355262524
 20
-584.6496084384
 10
1029.1348789765
 20
-584.4589112316
 10
1024.1226036746
 20
-584.5877477499
 10
1019.0086517554
 20
-585.0358622003
 10
1013.8031764971
 20
-585.802364893
 10
1008.5165128889
 20
-586.8857340079
 10
1003.1591571121
 20
-588.2838186159
 10
997.7417457007
 20
-589.9938429493
 10
992.2750344236
 20
-592.0124119133
 10
986.76987693
 20
-594.3355178258
 10
981.2372032005
 20
-596.9585483753
 10
975.6879978467
 20
-599.8762957773
 10
970.1332783022
 20
-603.0829671145
 10
964.5840729484
 20
-606.5721958376
 10
959.0513992189
 20
-610.3370544062
 10
953.5462417253
 20
-614.3700680419
 10
948.0795304482
 20
-618.6632295696
 10
942.6621190368
 20
-623.2080153143
 10
937.30476326
 20
-627.9954020248
 10
932.0180996518
 20
-633.0158847878
 10
926.8126243935
 20
-638.2594958995
 10
921.6986724743
 20
-643.7158246554
 10
916.6863971724
 20
-649.3740380198
 10
911.7857498965
 20
-655.2229021339
 10
907.006460428
 20
-661.2508046194
 10
902.3580176039
 20
-667.4457776337
 10
897.849650477
 20
-673.7955216316
 10
893.4903099931
 20
-680.2874297839
 10
889.288651219
 20
-686.908613008
 10
885.2530161595
 20
-693.6459255575
 10
881.3914171942
 20
-700.485991122
 10
877.7115211707
 20
-707.4152293844
 10
874.2206341816
 20
-714.4198829835
 10
870.9256870602
 20
-721.486044828
 10
867.8332216187
 20
-728.5996857077
 10
864.9493776613
 20
-735.746682147
 10
862.279880793
 20
-742.912844446
 10
859.8300310528
 20
-750.083944853
 10
857.6046923907
 20
-757.2457458117
 10
855.6082830104
 20
-764.3840282293
 10
853.8447665981
 20
-771.4846197069
 10
852.3176444524
 20
-778.5334226772
 10
851.0299485329
 20
-785.5164423946
 10
849.9842354407
 20
-792.4198147196
 10
849.1825813422
 20
-799.2298336456
 10
848.6265778477
 20
-805.9329785104
 10
848.3173288504
 20
-812.5159408402
 10
848.2554483356
 20
-818.9656507728
 10
848.4410591615
 20
-825.2693030061
 10
848.8737928148
 20
-831.414382222
 10
849.5527901431
 20
-837.3886879346
 10
850.4767030598
 20
-843.1803587129
 10
851.6436972215
 20
-848.7778957308
 10
853.0514556692
 20
-854.1701855964
 10
854.6971834289
 20
-859.3465224176
 10
856.5776130605
 20
-864.2966290566
 10
858.6890111449
 20
-869.0106775349
 10
861.0271856968
 20
-873.4793085457
 10
863.5874944869
 20
-877.6936500357
 10
866.3648542591
 20
-881.6453348199
 10
869.3537508228
 20
-885.3265171941
 10
872.5482500005
 20
-888.7298885112
 10
875.9420094096
 20
-891.8486916928
 10
879.5282910552
 20
-894.6767346436
 10
883.2999747069
 20
-897.2084025462
 10
887.2495720359
 20
-899.4386690084
 10
891.3692414824
 20
-901.3631060425
 10
895.650803824
 20
-902.9778928568
 10
900.085758415
 20
-904.2798234418
 10
904.6653000635
 20
-905.2663129346
 10
909.3803365136
 20
-905.9354027518
 10
914.2215064968
 20
-906.2857644774
 10
919.1791983183
 20
-906.3167025006
 10
924.2435689397
 20
-906.0281553969
 10
929.4045635221
 20
-905.4206960499
 10
934.6519353883
 20
-904.4955305138
 10
939.9752663674
 20
-903.2544956191
 10
945.3639874784
 20
-901.7000553259
 10
950.8073999142
 20
-899.8352958313
 10
956.2946962835
 20
-897.6639194428
 10
961.8149820671
 20
-895.1902372272
 10
967.3572972487
 20
-892.4191604516
 10
972.9106380745
 20
-889.3561908324
  0
LWPOLYLINE
  5
C9
330
1F
100
AcDbEntity
  8
0
  6
Continuous
 62
     7
370
    25
100
AcDbPolyline
 90
       74
 70
   128
 43
0.0
 10
1224.5699414987
 20
-1157.6887146824
 10
1227.3853068945
 20
-1155.9171643538
 10
1229.9264460232
 20
-1154.0124554835
 10
1232.1745451797
 20
-1151.9886898694
 10
1234.1129602245
 20
-1149.8608507643
 10
1235.7273398108
 20
-1147.6446919443
 10
1237.0057316368
 20
-1145.356621074
 10
1237.9386709369
 20
-1143.0135782295
 10
1238.5192505548
 20
-1140.6329104804
 10
1238.7431720822
 20
-1138.2322434578
 10
1238.6087776824
 20
-1135.8293508603
 10
1238.1170623646
 20
-1133.442022864
 10
1237.2716666169
 20
-1131.0879344102
 10
1236.0788494536
 20
-1128.7845143461
 10
1234.5474420757
 20
-1126.5488163881
 10
1232.6887824877
 20
-1124.3973928616
 10
1230.5166315548
 20
-1122.3461721537
 10
1228.0470711226
 20
-1120.4103407848
 10
1225.2983849525
 20
-1118.6042309731
 10
1222.2909233552
 20
-1116.9412145237
 10
1219.0469525242
 20
-1115.4336038287
 10
1215.5904896845
 20
-1114.0925607101
 10
1211.9471252777
 20
-1112.9280137819
 10
1208.1438334992
 20
-1111.9485849423
 10
1204.2087725906
 20
-1111.1615255396
 10
1200.1710763661
 20
-1110.5726626863
 10
1196.0606385159
 20
-1110.1863561169
 10
1191.9078912838
 20
-1110.0054659102
 10
1187.7435801574
 20
-1110.0313313139
 10
1183.5985362391
 20
-1110.2637608297
 10
1179.5034479841
 20
-1110.7010336307
 10
1175.488633993
 20
-1111.339912302
 10
1171.5838185439
 20
-1112.1756668096
 10
1167.8179115242
 20
-1113.2021095194
 10
1164.218794392
 20
-1114.4116410088
 10
1160.8131137512
 20
-1115.7953063298
 10
1157.6260840698
 20
-1117.3428613084
 10
1154.6813010005
 20
-1119.0428483891
 10
1152.0005666869
 20
-1120.8826814622
 10
1149.6037283479
 20
-1122.8487390474
 10
1147.5085313359
 20
-1124.9264651422
 10
1145.7304877567
 20
-1127.1004769895
 10
1144.2827616228
 20
-1129.3546789662
 10
1143.176071392
 20
-1131.6723817496
 10
1142.4186106115
 20
-1134.0364258791
 10
1142.0159872559
 20
-1136.4293087992
 10
1141.9711822078
 20
-1138.8333144418
 10
1142.284527188
 20
-1141.2306443903
 10
1142.9537022999
 20
-1143.6035496525
 10
1143.9737532052
 20
-1145.934462068
 10
1145.3371278037
 20
-1148.2061243768
 10
1147.033732147
 20
-1150.4017179861
 10
1149.05100517
 20
-1152.5049874888
 10
1151.3740116892
 20
-1154.5003610134
 10
1153.985552977
 20
-1156.3730655125
 10
1156.8662940954
 20
-1158.1092361372
 10
1159.9949070451
 20
-1159.6960188876
 10
1163.3482286703
 20
-1161.1216657793
 10
1166.9014321509
 20
-1162.3756218217
 10
1170.6282108117
 20
-1163.4486031628
 10
1174.5009728872
 20
-1164.3326658242
 10
1178.491045802
 20
-1165.0212645154
 10
1182.5688884522
 20
-1165.5093010924
 10
1186.7043099176
 20
-1165.7931623032
 10
1190.8666929845
 20
-1165.8707465388
 10
1195.025220825
 20
-1165.7414793925
 10
1199.1491051538
 20
-1165.4063179132
 10
1203.2078141743
 20
-1164.8677435192
 10
1207.1712986248
 20
-1164.1297436268
 10
1211.0102142532
 20
-1163.197782129
 10
1214.6961390713
 20
-1162.0787589427
 10
1218.2017837813
 20
-1160.7809589241
 10
1221.5011938163
 20
-1159.3139905304
 10
1224.5699414987
 20
-1157.6887146824
  0
LWPOLYLINE
  5
CA
330
1F
100
AcDbEntity
  8
0
  6
Continuous
 62
     7
370
    25
100
AcDbPolyline
 90
       79
 70
   128
 43
0.0
 10
1229.2368462546
 20
-1160.3828614514
 10
1232.2401502391
 20
-1158.5034861686
 10
1234.9717544099
 20
-1156.4906945588
 10
1237.4139432659
 20
-1154.357540348
 10
1239.5508782751
 20
-1152.1178578597
 10
1241.368700594
 20
-1149.7861722944
 10
1242.8556209473
 20
-1147.3776055277
 10
1244.0019960859
 20
-1144.9077780393
 10
1244.8003913272
 20
-1142.3927076082
 10
1245.2456287716
 20
-1139.8487054313
 10
1245.3348208835
 20
-1137.2922703389
 10
1245.0673892178
 20
-1134.7399817935
 10
1244.4450681714
 20
-1132.2083923658
 10
1243.4718937352
 20
-1129.7139203848
 10
1242.1541773188
 20
-1127.2727434582
 10
1240.5004648189
 20
-1124.9006935554
 10
1238.5214811955
 20
-1122.6131543301
 10
1236.2300609169
 20
-1120.4249613521
 10
1233.6410647228
 20
-1118.3503058924
 10
1230.7712832471
 20
-1116.4026428878
 10
1227.6393281239
 20
-1114.5946036804
 10
1224.2655112839
 20
-1112.9379140981
 10
1220.671713224
 20
-1111.4433184086
 10
1216.8812411037
 20
-1110.1205096386
 10
1212.9186775892
 20
-1108.9780667104
 10
1208.8097214255
 20
-1108.0233988048
 10
1204.58102077
 20
-1107.2626973096
 10
1200.2600003691
 20
-1106.7008956659
 10
1195.8746836983
 20
-1106.3416373729
 10
1191.4535112189
 20
-1106.1872523584
 10
1187.0251559311
 20
-1106.2387418686
 10
1182.6183374181
 20
-1106.4957719742
 10
1178.2616355891
 20
-1106.9566757364
 10
1173.9833053273
 20
-1107.6184640174
 10
1169.811093246
 20
-1108.4768448662
 10
1165.7720577417
 20
-1109.5262513536
 10
1161.8923935095
 20
-1110.759877676
 10
1158.1972616608
 20
-1112.1697232931
 10
1154.7106265434
 20
-1113.7466448152
 10
1151.4551003241
 20
-1115.4804153012
 10
1148.4517963396
 20
-1117.3597905839
 10
1145.7201921687
 20
-1119.3725821937
 10
1143.2780033127
 20
-1121.5057364046
 10
1141.1410683035
 20
-1123.7454188928
 10
1139.3232459846
 20
-1126.0771044581
 10
1137.8363256313
 20
-1128.4856712249
 10
1136.6899504927
 20
-1130.9554987133
 10
1135.8915552515
 20
-1133.4705691444
 10
1135.446317807
 20
-1136.0145713213
 10
1135.3571256951
 20
-1138.5710064137
 10
1135.6245573609
 20
-1141.123294959
 10
1136.2468784072
 20
-1143.6548843867
 10
1137.2200528434
 20
-1146.1493563678
 10
1138.5377692598
 20
-1148.5905332943
 10
1140.1914817598
 20
-1150.9625831972
 10
1142.1704653831
 20
-1153.2501224224
 10
1144.4618856618
 20
-1155.4383154005
 10
1147.0508818558
 20
-1157.5129708602
 10
1149.9206633315
 20
-1159.4606338647
 10
1153.0526184548
 20
-1161.2686730722
 10
1156.4264352947
 20
-1162.9253626545
 10
1160.0202333546
 20
-1164.4199583439
 10
1163.8107054749
 20
-1165.742767114
 10
1167.7732689894
 20
-1166.8852100422
 10
1171.8822251532
 20
-1167.8398779477
 10
1176.1109258087
 20
-1168.6005794429
 10
1180.4319462096
 20
-1169.1623810867
 10
1184.8172628804
 20
-1169.5216393797
 10
1189.2384353597
 20
-1169.6760243941
 10
1193.6667906475
 20
-1169.6245348839
 10
1198.0736091605
 20
-1169.3675047783
 10
1202.4303109895
 20
-1168.9066010161
 10
1206.7086412514
 20
-1168.2448127352
 10
1210.8808533326
 20
-1167.3864318864
 10
1214.9198888369
 20
-1166.3370253989
 10
1218.7995530691
 20
-1165.1033990766
 10
1222.4946849179
 20
-1163.6935534594
 10
1225.9813200352
 20
-1162.1166319373
 10
1229.2368462546
 20
-1160.3828614514
  0
ENDSEC
  0
SECTION
  2
OBJECTS
  0
DICTIONARY
  5
C
330
0
100
AcDbDictionary
281
     1
  3
ACAD_GROUP
350
D
  3
ACAD_LAYOUT
350
1A
  3
ACAD_MLINESTYLE
350
17
  3
ACAD_PLOTSETTINGS
350
19
  3
ACAD_PLOTSTYLENAME
350
E
  3
ACAD_SCALELIST
350
47
  3
DWGPROPS
350
CB
  0
DICTIONARY
  5
D
102
{ACAD_REACTORS
330
C
102
}
330
C
100
AcDbDictionary
281
     1
  0
DICTIONARY
  5
1A
102
{ACAD_REACTORS
330
C
102
}
330
C
100
AcDbDictionary
281
     1
  3
Layout1
350
1E
  3
Layout2
350
26
  3
Model
350
22
  0
DICTIONARY
  5
17
102
{ACAD_REACTORS
330
C
102
}
330
C
100
AcDbDictionary
281
     1
  3
Standard
350
18
  0
DICTIONARY
  5
19
102
{ACAD_REACTORS
330
C
102
}
330
C
100
AcDbDictionary
281
     1
  0
ACDBDICTIONARYWDFLT
  5
E
102
{ACAD_REACTORS
330
C
102
}
330
C
100
AcDbDictionary
281
     1
  3
Normal
350
F
100
AcDbDictionaryWithDefault
340
F
  0
DICTIONARY
  5
47
102
{ACAD_REACTORS
330
C
102
}
330
C
100
AcDbDictionary
281
     1
  3
A0
350
48
  3
A1
350
49
  3
A2
350
4A
  3
A3
350
4B
  3
A4
350
4C
  3
A5
350
4D
  3
A6
350
4E
  3
A7
350
4F
  3
A8
350
50
  3
A9
350
51
  3
B0
350
52
  3
B1
350
53
  3
B2
350
54
  3
B3
350
55
  3
B4
350
56
  3
B5
350
57
  3
B6
350
58
  3
B7
350
59
  3
B8
350
5A
  3
B9
350
5B
  3
C0
350
5C
  3
C1
350
5D
  3
C2
350
5E
  3
C3
350
5F
  3
C4
350
60
  3
C5
350
61
  3
C6
350
62
  3
C7
350
63
  3
C8
350
64
  3
C9
350
65
  3
D0
350
66
  3
D1
350
67
  3
D2
350
68
  0
XRECORD
  5
CB
102
{ACAD_REACTORS
330
C
102
}
330
C
100
AcDbXrecord
280
     1
  1
DWGPROPS COOKIE
  2

  3

  4

  6

  7

  8
b.kav
  9

300
=
301
=
302
=
303
=
304
=
305
=
306
=
307
=
308
=
309
=
 40
0.0
 41
2459921.411965405
 42
2459921.411965579
  1

 90
        0
  0
LAYOUT
  5
1E
102
{ACAD_REACTORS
330
1A
102
}
330
1A
100
AcDbPlotSettings
  1

  2
none_device
  4

  6

 40
0.0
 41
0.0
 42
0.0
 43
0.0
 44
0.0
 45
0.0
 46
0.0
 47
0.0
 48
0.0
 49
0.0
140
0.0
141
0.0
142
1.0
143
1.0
 70
   688
 72
     1
 73
     0
 74
     5
  7

 75
    16
147
1.0
148
0.0
149
0.0
100
AcDbLayout
  1
Layout1
 70
     1
 71
     1
 10
0.0
 20
0.0
 11
420.0
 21
297.0
 12
0.0
 22
0.0
 32
0.0
 14
1.0000000000E+20
 24
1.0000000000E+20
 34
1.0000000000E+20
 15
-1.0000000000E+20
 25
-1.0000000000E+20
 35
-1.0000000000E+20
146
0.0
 13
0.0
 23
0.0
 33
0.0
 16
1.0
 26
0.0
 36
0.0
 17
0.0
 27
1.0
 37
0.0
 76
     0
330
1B
  0
LAYOUT
  5
26
102
{ACAD_REACTORS
330
1A
102
}
330
1A
100
AcDbPlotSettings
  1

  2
none_device
  4

  6

 40
0.0
 41
0.0
 42
0.0
 43
0.0
 44
0.0
 45
0.0
 46
0.0
 47
0.0
 48
0.0
 49
0.0
140
0.0
141
0.0
142
1.0
143
1.0
 70
   688
 72
     1
 73
     0
 74
     5
  7

 75
    16
147
1.0
148
0.0
149
0.0
100
AcDbLayout
  1
Layout2
 70
     1
 71
     2
 10
0.0
 20
0.0
 11
0.0
 21
0.0
 12
0.0
 22
0.0
 32
0.0
 14
0.0
 24
0.0
 34
0.0
 15
0.0
 25
0.0
 35
0.0
146
0.0
 13
0.0
 23
0.0
 33
0.0
 16
1.0
 26
0.0
 36
0.0
 17
0.0
 27
1.0
 37
0.0
 76
     0
330
23
  0
LAYOUT
  5
22
102
{ACAD_REACTORS
330
1A
102
}
330
1A
100
AcDbPlotSettings
  1

  2
none_device
  4
Letter_(8.50_x_11.00_Inches)
  6

 40
6.35
 41
6.35
 42
6.35000508
 43
6.35000508
 44
215.9
 45
279.4
 46
0.0
 47
0.0
 48
0.0
 49
0.0
140
0.0
141
0.0
142
1.0
143
1.0
 70
  1712
 72
     1
 73
     0
 74
     0
  7

 75
     0
147
1.0
148
0.0
149
0.0
100
AcDbLayout
  1
Model
 70
     1
 71
     0
 10
0.0
 20
0.0
 11
279.4
 21
215.9
 12
0.0
 22
0.0
 32
0.0
 14
0.0
 24
0.0
 34
0.0
 15
279.4
 25
215.9
 35
0.0
146
0.0
 13
0.0
 23
0.0
 33
0.0
 16
1.0
 26
0.0
 36
0.0
 17
0.0
 27
1.0
 37
0.0
 76
     0
330
1F
331
29
  0
MLINESTYLE
  5
18
102
{ACAD_REACTORS
330
17
102
}
330
17
100
AcDbMlineStyle
  2
Standard
 70
     0
  3

 62
   256
 51
90.0
 52
90.0
 71
     2
 49
0.5
 62
   256
  6
BYLAYER
 49
-0.5
 62
   256
  6
BYLAYER
  0
ACDBPLACEHOLDER
  5
F
102
{ACAD_REACTORS
330
E
102
}
330
E
  0
SCALE
  5
48
102
{ACAD_REACTORS
330
47
102
}
330
47
100
AcDbScale
 70
     0
300
1:1
140
1.0
141
1.0
290
     1
  0
SCALE
  5
49
102
{ACAD_REACTORS
330
47
102
}
330
47
100
AcDbScale
 70
     0
300
1:2
140
1.0
141
2.0
290
     0
  0
SCALE
  5
4A
102
{ACAD_REACTORS
330
47
102
}
330
47
100
AcDbScale
 70
     0
300
1:4
140
1.0
141
4.0
290
     0
  0
SCALE
  5
4B
102
{ACAD_REACTORS
330
47
102
}
330
47
100
AcDbScale
 70
     0
300
1:5
140
1.0
141
5.0
290
     0
  0
SCALE
  5
4C
102
{ACAD_REACTORS
330
47
102
}
330
47
100
AcDbScale
 70
     0
300
1:8
140
1.0
141
8.0
290
     0
  0
SCALE
  5
4D
102
{ACAD_REACTORS
330
47
102
}
330
47
100
AcDbScale
 70
     0
300
1:10
140
1.0
141
10.0
290
     0
  0
SCALE
  5
4E
102
{ACAD_REACTORS
330
47
102
}
330
47
100
AcDbScale
 70
     0
300
1:16
140
1.0
141
16.0
290
     0
  0
SCALE
  5
4F
102
{ACAD_REACTORS
330
47
102
}
330
47
100
AcDbScale
 70
     0
300
1:20
140
1.0
141
20.0
290
     0
  0
SCALE
  5
50
102
{ACAD_REACTORS
330
47
102
}
330
47
100
AcDbScale
 70
     0
300
1:30
140
1.0
141
30.0
290
     0
  0
SCALE
  5
51
102
{ACAD_REACTORS
330
47
102
}
330
47
100
AcDbScale
 70
     0
300
1:40
140
1.0
141
40.0
290
     0
  0
SCALE
  5
52
102
{ACAD_REACTORS
330
47
102
}
330
47
100
AcDbScale
 70
     0
300
1:50
140
1.0
141
50.0
290
     0
  0
SCALE
  5
53
102
{ACAD_REACTORS
330
47
102
}
330
47
100
AcDbScale
 70
     0
300
1:100
140
1.0
141
100.0
290
     0
  0
SCALE
  5
54
102
{ACAD_REACTORS
330
47
102
}
330
47
100
AcDbScale
 70
     0
300
2:1
140
2.0
141
1.0
290
     0
  0
SCALE
  5
55
102
{ACAD_REACTORS
330
47
102
}
330
47
100
AcDbScale
 70
     0
300
4:1
140
4.0
141
1.0
290
     0
  0
SCALE
  5
56
102
{ACAD_REACTORS
330
47
102
}
330
47
100
AcDbScale
 70
     0
300
8:1
140
8.0
141
1.0
290
     0
  0
SCALE
  5
57
102
{ACAD_REACTORS
330
47
102
}
330
47
100
AcDbScale
 70
     0
300
10:1
140
10.0
141
1.0
290
     0
  0
SCALE
  5
58
102
{ACAD_REACTORS
330
47
102
}
330
47
100
AcDbScale
 70
     0
300
100:1
140
100.0
141
1.0
290
     0
  0
SCALE
  5
59
102
{ACAD_REACTORS
330
47
102
}
330
47
100
AcDbScale
 70
     0
300
1/128" = 1'-0"
140
0.0078125
141
12.0
290
     0
  0
SCALE
  5
5A
102
{ACAD_REACTORS
330
47
102
}
330
47
100
AcDbScale
 70
     0
300
1/64" = 1'-0"
140
0.015625
141
12.0
290
     0
  0
SCALE
  5
5B
102
{ACAD_REACTORS
330
47
102
}
330
47
100
AcDbScale
 70
     0
300
1/32" = 1'-0"
140
0.03125
141
12.0
290
     0
  0
SCALE
  5
5C
102
{ACAD_REACTORS
330
47
102
}
330
47
100
AcDbScale
 70
     0
300
1/16" = 1'-0"
140
0.0625
141
12.0
290
     0
  0
SCALE
  5
5D
102
{ACAD_REACTORS
330
47
102
}
330
47
100
AcDbScale
 70
     0
300
3/32" = 1'-0"
140
0.09375
141
12.0
290
     0
  0
SCALE
  5
5E
102
{ACAD_REACTORS
330
47
102
}
330
47
100
AcDbScale
 70
     0
300
1/8" = 1'-0"
140
0.125
141
12.0
290
     0
  0
SCALE
  5
5F
102
{ACAD_REACTORS
330
47
102
}
330
47
100
AcDbScale
 70
     0
300
3/16" = 1'-0"
140
0.1875
141
12.0
290
     0
  0
SCALE
  5
60
102
{ACAD_REACTORS
330
47
102
}
330
47
100
AcDbScale
 70
     0
300
1/4" = 1'-0"
140
0.25
141
12.0
290
     0
  0
SCALE
  5
61
102
{ACAD_REACTORS
330
47
102
}
330
47
100
AcDbScale
 70
     0
300
3/8" = 1'-0"
140
0.375
141
12.0
290
     0
  0
SCALE
  5
62
102
{ACAD_REACTORS
330
47
102
}
330
47
100
AcDbScale
 70
     0
300
1/2" = 1'-0"
140
0.5
141
12.0
290
     0
  0
SCALE
  5
63
102
{ACAD_REACTORS
330
47
102
}
330
47
100
AcDbScale
 70
     0
300
3/4" = 1'-0"
140
0.75
141
12.0
290
     0
  0
SCALE
  5
64
102
{ACAD_REACTORS
330
47
102
}
330
47
100
AcDbScale
 70
     0
300
1" = 1'-0"
140
1.0
141
12.0
290
     0
  0
SCALE
  5
65
102
{ACAD_REACTORS
330
47
102
}
330
47
100
AcDbScale
 70
     0
300
1-1/2" = 1'-0"
140
1.5
141
12.0
290
     0
  0
SCALE
  5
66
102
{ACAD_REACTORS
330
47
102
}
330
47
100
AcDbScale
 70
     0
300
3" = 1'-0"
140
3.0
141
12.0
290
     0
  0
SCALE
  5
67
102
{ACAD_REACTORS
330
47
102
}
330
47
100
AcDbScale
 70
     0
300
6" = 1'-0"
140
6.0
141
12.0
290
     0
  0
SCALE
  5
68
102
{ACAD_REACTORS
330
47
102
}
330
47
100
AcDbScale
 70
     0
300
1'-0" = 1'-0"
140
12.0
141
12.0
290
     0
  0
ENDSEC
  0
EOF
